Аккорды песен для гитары

Король и Шут – Леший обиделся

Прокрутка: 0
Шрифт: 100%
A            D  Hm        E
В ночном лесу костер горел,
C#m   F#m            D          E
А у костра усталый дедушка сидел,
A      D    Hm      A
Трогал усы, трубку курил,
         Hm             E     A  D E
О чем-то тихо сам с собою говорил.

            D   Hm          E
И в тот же миг раздался крик,
C#m       F#m         D            E
Схватив дубину, поспешил на зов старик.
A                     D      Hm      E
От боли корчась, парень в кустах лежал,
C#m F#m          D                 E
И озирался, и от страха весь дрожал.

 A                       D
"Дедушка, милый, спаси меня,
      Hm            E
В капкан угодила нога моя".
 F#m                D
Но почему в ответ брови нахмурил дед,
  E
Брови сурово нахмурил дед?

          D     Hm    E
Старик курил и говорил:
C#m       F#m       D             E
"Ты мне серьезную обиду причинил.
A                     D      Hm     E
Как смел ты этой ночью в мой лес ходить,
C#m         F#m            D         E
О страшном лешем так бесстыдно позабыть?"

A                       D
"Дедушка, милый, спаси меня,
      Hm            E
В капкан угодила нога моя".
 F#m                D
Но почему в ответ брови нахмурил дед,
  E
Брови сурово нахмурил дед?

A | D | A | Hm | E | A

1|-----------------------------2-----------------------|
2|-2--0--------2--0----5-----2---3-3-2-0-----0-2-0-----|
3|-------2-----------2-----2-----------------------2---|
4|---------4-------------------------------------------|
5|-----------------------------------------------------|
6|-----------------------------------------------------|

A | C | F | G

A        C
"Погибель тебя ждет,
         F          G
Коль ты со мною повстречался,
    A              C
Ведь больше не живет тот зверь,
     F               G
Что в мой капкан попался".

A                               D
Парень вскочил и помчался прочь,
Hm                        E
Дико кричал, проклиная ночь,
F#m                         D
Падал, одежду рвал, снова вставал, бежал
 E
Вместе с капканом до самого дома.

D | Hm | E | C#m | F#m | D | E | A | G# | G | F#

1|-------------------------------------------------------------|
2|-2-2-------2-3---5-5-------7--10--9--7-9--10--9--10--15--14--|
3|---------4-----1-----1-2-------------------------------------|
4|-----2-4-----------------------------------------------------|
5|-------------------------------------------------------------|
6|-------------------------------------------------------------|

Аппликатуры аккордов

Видео

Настройка гитары